Jump to content

Entry for December 2018's Guitar Of The Month is now open
Last spot for 2018's Guitar Of The Year!

ENTER HERE!

canuckguitarist

Sweep Picking...

Recommended Posts

Well this is one i used to practice

e-----------12-15p12--------------------11-14p11------------

b--------13-----------13--------------12------------12--------

g-----14-----------------14--------13------------------13-----

d--15-----------------------15--14------------------------14--

a----------------------------------------------------------------

e----------------------------------------------------------------

Basic 4 string pattern, and can be adapted for 3 strings or even 5 or 6 strings with a bit of imagination.

Edited by RGman

Share this post


Link to post
Share on other sites
Theres lots of videos up on Youtube which cover sweep picking.

There is indeed, wow, long time between drinks on this post, one of my favourite sweeps is up the left hand side of the pentatonic scale and down the right hand side,

_________14___17____________

_______14_______17__________

____14_____________16_______

__14__________________16____

____________________________

____________________________

Another thing you can do with sweeping is insert a sweep or half a sweep cycle into a melody, I have put a link to an example with the second half of the sweep above slotted in with some tapping and standard picking,

default.jpg

In the video I tried to play along with my improvised solo and I think I remembered most of the notes except one :D

Share this post


Link to post
Share on other sites

some dimished arp's that are real easy to get the feel of sweeping down. you can play it anywhere, just move up or down by 4 frets.

e -----9-12-9----------12-15-12----------15-18-15-----

b --11--------11-----14---------14------17---------17----

g 12------------12-15-------------15--18-------------18---

d ------------------------------------------------------------

a -----------------------------------------------------------

E -----------------------------------------------------------

Share this post


Link to post
Share on other sites

Mark Tremonti is crazy good at sweeps and has an instructional DVD out. Probably find the lessons on youtube.

Share this post


Link to post
Share on other sites

Create an account or sign in to comment

You need to be a member in order to leave a comment

Create an account

Sign up for a new account in our community. It's easy!

Register a new account

Sign in

Already have an account? Sign in here.

Sign In Now

×